1. The Bot
    The Bot  
        Mi trovi su: Homepage #3803492
    Anche questo:
    wink
    Tomb Raider
    Intro Theme

    E-3~~--5---1---3~~-----6-5--3~~---5-1--3-------1-----------------------
    B----------------------------------------------------------------------
    G---------------------------0------------------------------------------
    D---------------------------3---2------0------3------------------------
    A----------------------------------------------------------------------
    E----------------------------------------------------------------------

    Harp bit
    E----------------------------------------------------------------------
    B------------------------------------------------1---------------------
    G---------------------0--------------------------0-------3-------------
    D----0------3-----2-3----2---3---0-----3----2-3------3---3-------------
    A-------1-------3-------------------1----3-----------------------------
    E--3-------------------------3-------------------1-------3-------------

    E----------------------------------------------------------------------
    B----------------------------------------------------------------------
    G-------------0--------0-----------------------------0-----------------
    D--0----3--------3--2------2---3---0------3-------3-----3--2--0--------
    A----1-----3--------------------------1-------1------------------3-----
    E----------------------1-------3------------------------1--------------

  Chi conosce lo spartito?

Commenta

Per scrivere su Videogame.it devi essere registrato!

         

Online

Ci sono 0 ospiti e 0 utenti online su questa pagina